Du är den ende (eg. Spansk romans)

Vänster hand*:
*C2---- betyder att du tar barre (vänster pekfinger över band 2) på gitarrhalsen.

  Moll-delen

   *a m i a m i a m i
e --7-----7-----7-----|-7-----5-----3-----|-3-----2-----0-----|
h ----0-----0-----0---|---0-----0-----0---|---0-----0-----0---|
g ------0-----0-----0-|-----0-----0-----0-|-----0-----0-----0-|
d --------------------|-------------------|-------------------|
A --------------------|-------------------|-------------------|
E --0-----------------|-0-----------------|-0-----------------|
    p


e --0-----3-----7-----|-12----12---12-----|-12----10----8-----|
h ----0-----0-----0---|---0-----0-----0---|---0-----0-----0---|
g ------0-----0-----0-|-----0-----0-----0-|-----0-----0-----0-|
d --------------------|-------------------|-------------------|
A --------------------|-------------------|-------------------|
E --0-----------------|-0-----------------|-0-----------------|


  *C5 - - - - -- - - - - - - - - - - - -- *C7 - - - - - - - -
e --8-----7-----5-----|-5-----7-----8-----|-7-----8-----7-----|
h ----5-----5-----5---|---5-----5-----5---|---7-----7-----7---|
g ------5-----5-----5-|-----5-----5-----5-|-----8-----8-----8-|
d --------------------|-------------------|-------------------|
A --------------------|-------------------|-------------------|
E --5-----------------|-5-----------------|-7-----------------|


  - - - - - - - - - -
e --11----8-----7-----|-7-----5-----3-----|-3-----2-----0-----|
h ----7-----7-----7---|---0-----0-----0---|---0-----0-----0---|
g ------8-----8-----8-|-----0-----0-----0-|-----0-----0-----0-|
d --------------------|-------------------|-------------------|
A --------------------|-------------------|-------------------|
E --7-----------------|-0-----------------|-0-----------------|



e --2-----2-----2-----|-2-----3-----2-----|-0-----0-----0-----|-0-||
h ----0-----0-----0---|---0-----0-----0---|---0-----0-----0---|-0-||
g ------2-----2-----2-|-----2-----2-----2-|-----0-----0-----0-|-0-||
d --------------------|-------------------|-2-----------------|-2-||
A --2-----------------|-2-----------------|-------2-----------|-2-||
E --------------------|-------------------|-------------3-----|-0-||


  DUR-delen
                                          *C2 - - - - - - - -
e --4-----4-----4-----|-4-----2-----0-----|-------------------|
h ----0-----0-----0---|---0-----0-----0---|-5-----4-----4-----|
g ------1-----1-----1-|-----1-----1-----1-|---2-----2-----2---|
d --------------------|-------------------|-----4-----4-----4-|
A --------------------|-------------------|-2-----------------|
E --0-----------------|-0-----------------|-------------------|


  - - - - - - - - - - *C7 - - - - - - - - - - - - - - - - - -
e --------------------|-9-----9-----9-----|-9-----11----9-----|
h -4-----3-----4------|---7-----7-----7---|---7-----7-----7---|
g ---2-----2-----2----|-----8-----8-----8-|-----8-----8-----8-|
d -----4-----4-----4--|-------------------|-------------------|
A -2------------------|-------------------|-------------------|
E --------------------|-7-----------------|-7-----------------|



e --9-----7-----7-----|-7-----9-----11----|-12----12----12----|
h ----9-----9-----9---|---9-----9-----9---|---9-----9-----9---|
g ------9-----9-----9-|-----9-----9-----9-|-----9-----9-----9-|
d --------------------|-------------------|-------------------|
A --------------------|-------------------|-------------------|
E --0-----------------|-0-----------------|-0-----------------|


                      *C5 - - - - - - - - - - - - - - - - - -
e --12----11----10----|-9-----9------9----|-9-----7-----5-----|
h ----9-----9-----9---|---5-----5-----5---|---5-----5-----5---|
g ------9-----9-----9-|-----6-----6-----6-|-----6-----6-----6-|
d --------------------|-------------------|-------------------|
A --------------------|-------------------|-------------------|
E --0-----------------|-5-----------------|-5-----------------|


                      *C2 - - - - - - - -
e --4-----4-----4-----|-4-----5-----2-----|-0-----0-----0-----|-0-||
h ----0-----0-----0---|---4-----4-----4---|---0-----0-----0---|-0-||
g ------1-----1-----1-|-----2-----2-----2-|-----1-----1-----1-|-1-||
d --------------------|-------------------|-2-----------------|-2-||
A --------------------|-------------------|-------2-----------|-2-||
E --0-----------------|-2-----------------|-------------4-----|-0-||


by musse-Lasse Hovåsskolan 1996 
Till Tabulatursidan